GUITAR TABS FOR

SLASH'S "ALWAYS ON THE RUN"






Always On The Run

Written by SLASH
Original Recording by SLASH and Lenny Kravitz


Tabs from Lance Tracy
(Thanks, Lance)
Key:-

 bu - bend up (fret num in brachets shows how far to bend)
 bd - bend back down
 p - pull off
 h - hamme on
 / - slide up (may also show "s" above)
 \ - slide down
 ~ - vibrato

 Intro and chorus riff (guitar 1)....

 -----------------------------------------
 -----------------------------------------
 ----------------------------p------------
 ------------p-------------5---0----------
 ------7---5---4-----5----------------7~~-
 --0--------------0-----0---------0-------

 -----------------------------------------
 -----------------------------------------
 -----------------------------------h-----
 ----------p----------------------0---2---
 -----7--5---4---5---5-5--2---p-----------
 --0-----------0------------3---0---------


 Guitar Solo by Slash.....

 --------------------------------------------------------
 ------------------------------------------p-------------
 --------------------------p-------p-----5---0---7-------
 ------p-------p---------5---0---7---5-------------------
 ----4---0---5---0---7-----------------------------------
 -5------------------------------------------------------


 --------------------------------------------------------
 ---BU----------p-------------------------5--------5/----
 --7(9)---5---7---5-----5-----h---5---5-------/9---------
 --------------------7-----5---7-------------------------
 --------------------------------------------------------
 --------------------------------------------------------


 -----bu----12--------bu---------------------------------
 ---15(17)------12--14(15)--12-----bu--bd----p-----------
 --------------------------------14(15)(14)----12--------
 --------------------------------------------------------
 --------------------------------------------------------
 --------------------------------------------------------


 --------------p-----------------------------------------------------
 ---bu---12--15-12----12---bu---12---bu--bd-p-----------bu--bd-------
 -14(16)-----------14----14(15)----14(15)(14)-12--14--14(14)(12)-----
 -----------------------------------------------14--14------------14-
 --------------------------------------------------------------------
 --------------------------------------------------------------------


 ---bu------bu--------bu---7----p----------------------------7---s---
 -10(12)--10(12)----10(12)---10---7---bu--bd--p------p---h-----10/12-
 -------------------------------------9(11)(9)---7--9---7---8--------
 --------------------------------------------------------------------
 --------------------------------------------------------------------
 --------------------------------------------------------------------

          bu bu
 --0---12(14)---12---11---12---11---12---12(14)-------------12-------
 --------------------------------------------------------12----12----
 --------------------------------------------------------------------
 --------------------------------------------------------------------
 --------------------------------------------------------------------
 --------------------------------------------------------------------

       bu p bu bu p
 ---15(16)---12-----p-----15(16)---------15(16)--12----p-----15---12-
 ----------------15---12----------15--12------------15---12-----12---
 --------------------------------------------------------------------
 --------------------------------------------------------------------
 --------------------------------------------------------------------
 --------------------------------------------------------------------


 --bu--bd--p---------h--p--------------12---p------------------------
 -14(15)(14)-12----12-15-12---12---bu-----15-12---bu--bd--p----------
 ---------------15----------15---14(16)---------14(16)(14)-12----12--
 -------------------------------------------------------------14-----
 --------------------------------------------------------------------
 --------------------------------------------------------------------


 ------------------------------------------------------------------
 ------------------------------------------------------------------
 ----p-----------------------------------------12---12\------------
 --14-12-----bu-----------bu-------------------12---12\------------
 ----------12(14)-12--12--10(1/4)---------7------------------------
 ----------------------------------12-------11---------------------

 any questions? mail me @ :- 
 lancet_99@yahoo.com

Click on the picture of Lenny Kravitz to return to the SLASH Guitar Tabs Main Menu:

Guitar Tabs Page - Main Menu