GUITAR TABS FOR
"Be The Ball" - Version 3







Written by SLASH
For the Album: It's Five O'Clock Somewhere  
      by SLASH's Snakepit

Tabulature by Daniel Ballin
     (Thanks, Daniel!)

-------------------------------------------------------------------------------
			     Be the Ball - Slashs Snakepit
-------------------------------------------------------------------------------
p=Palm mute
tune down half step
By:dan
intro
e|------------------------------------------------------------------------------------|
B|---------8-9----8--------10---8-10-8-----------9---8-9----8-----------8--9----8-----|
G|------8-----------8--------8---------8-----------8----------8-------8-----------8-7-|
D|--10----------------10-----------------10---------------------10-9------------------|
A|------------------------------------------------------------------------------------|
E|------------------------------------------------------------------------------------|
during intro
e|------------------------------------------------------------------------
B|------------------------------------------------------------------------
G|------------------------------------------------------------------------
D|--10----7----6---5-----10~----10-10-10-10-10-10-10-10-10-10-10-10-10-10-
A|---8----7----6---5-----10~----10-10-10-10-10-10-10-10-10-10-10-10-10-10-
E|---8----5----4---3------8~-----8--8--8--8--8--8--8--8--8--8--8--8--8--8-
				  p  p     p  p  p     p  p  p     p  p  p 

e|----------------------------------------|
B|----------------------------------------|
G|----------------------------------------|
D|--10-10-10-10-10-10-10-10-10-10-10-10---|
A|--10-10-10-10-10-10-10-10-10-10-10-10---|
E|---8--8--8--8--8--8--8--8--8--8--8--8---|      
     p  p  p     p  p  p     p  p  p    
versesx2 
e|----------------------------------------------------------------|
B|----------------------------------------------------------------|
G|----------------------------------------------------------------|
D|--6-6-6-6-6-6-6-6-6-6-6-6-6-6-66-5-5-5-5-5-5-5-5-5-5-5-5-5-5-55-|
A|--6-6-6-6-6-6-6-6-6-6-6-6-6-6-66-5-5-5-5-5-5-5-5-5-5-5-5-5-5-55-|
E|--4-4-4-4-4-4-4-4-4-4-4-4-4-4-44-3-3-3-3-3-3-3-3-3-3-3-3-3-3-33-|
    p p   p p p   p p p   p p p  p p p   p p p   p p p   p p p  p
e|----------------------------------------------------------------------------------|
B|----------------------------------------------------------------------------------|
G|----------------------------------------------------------------------------------|
D|--8-8-8-8-8-8-8-8-8-8-8-8-8-8-88-10-10-10-10-10-10-10-10-10-10-10-10-10-10-1010---|
A|--8-8-8-8-8-8-8-8-8-8-8-8-8-8-88-10-10-10-10-10-10-10-10-10-10-10-10-10-10-1010---|
E|--6-6-6-6-6-6-6-6-6-6-6-6-6-6-66--8--8--8--8--8--8--8--8--8--8--8--8--8--8--9-9---|
    p p   p p p   p p p   p p p  p  p  p     p  p  p     p  p  p     p  p  p    p
chorusx4
e|-----------------------------------------------------------------------------------------|
B|-----------------------------------------------------------------------------------------|
G|-----------------------------------------------------------------------------------------|
D|--10--10-10-10-10-10-10-10--6--6-6-6-6-6-6-6--5--5-5-5-5-5-5-5--10--10-10-10-10-10-10-10-|
A|--10--10-10-10-10-10-10-10--6--6-6-6-6-6-6-6--5--5-5-5-5-5-5-5--10--10-10-10-10-10-10-10-|
E|---8---8--8--8--8--8--8--8--4--4-4-4-4-4-4-4--3--3-3-3-3-3-3-3---8---8--8--8--8--8--8--8-|
end chorus1
e|--------------------------------------------------------------|
B|--------------------------------------------------------------|
G|--------------------------------------------------------------|
D|--6---6--6-6-6-6--6---6--6-6-6-6--11---11--11-11-11-11--10~---|
A|--6---6--6-6-6-6--6---6--6-6-6-6--11---11--11-11-11-11--10~---|
E|--4-x-4--4-4-4-4--4-x-4--4-4-4-4---9-x--9---9--9--9--9---8~---|
then to verse.
end chorus2                                               
e|--------------------------------------------------------------------|
B|---10-x-10-10-9-x-9-9-8-x-8-8-7-x-7-7-5-x-5-5-3-x-3---5-------------|
G|---10-x-10-10-9-x-9-9-8-x-8-8-7-x-7-7-5-x-5-5-3-x-3---5-------------|
D|----8-x--8--8-7-x-7-7-6-x-6-6-5-x-5-5-3-x-3-3-1-x-1---3-3333-5555---|
A|--------------------------------------------------------3333-5555---|
E|--------------------------------------------------------1111-3333---|
                                                           ppp  ppp    
                                                           [sim sim]
then to 'end chorus'
        'intro'
solo=   'end of intro and verse' =solo
        'chorus'
outro    
e|------------------------------------------------------------------------------------|
B|------------------------------------------------------------------------------------|
G|------------------------------------------------------------------------------------|
D|--10--10-10-10-10-10-10-10--6--6-6-6-6-6-6-6--5--5-5--5--5-5--5--5-5--5--5-5-10-10\-|
A|--10--10-10-10-10-10-10-10--6--6-6-6-6-6-6-6--5--5-5--5--5-5--5--5-5--5--5-5-10-10\-|
E|---8---8--8--8--8--8--8--8--4--4-4-4-4-4-4-4--3x-3-3x-3--3-3--3x-3-3x-3--3-3--8--8\-|

Thanks Patrick for the intro!!!
This is mainly the rythym guitar to the song, if any1 knows the slash leads feel free
to add to this. Ive used so many tabs off this site i felt i should contribute
something also, this was my 1st time, so excuse any mistakes, thanks
and lets hope that slashs new band kicks ass!!!!!!!!!!
===============================================================================



Click on the picture of the guitar signed by SLASH during the Snakepit tour in 1995 to return to the SLASH Guitar Tabs Main Menu:

Guitar Tabs Page - Main Menu